*

Оффлайн Clarion Call

  • Старейшина
  • *
  • 1092
  • Пол: Женский
  • Redeemer
Для гитаристов
« : 30 Октябрь, 2009, 19:48 »
ну чтож эта тема для гитаристов! Давайте выкладывать сюда табулатуры своих любимых песен!
ну коечно же
Artist: 30 Seconds To Mars
Song: A Beautiful Lie

Intro/bridge/outro
Eb:---9~--8~---4~--|
Bb:----------------|
Gb:----------------|
Db:----------------|
Ab:----------------|
Eb:----------------|

Verse/Chorus:
(All the song goes around this 4 chords)
Eb:---------------------|
Bb:---------------------|
Gb:----------8---10-----|
Db:--8---4---8---10-----|
Ab:--8---4---6---8------|
Eb:--6---2--------------|
конечно же это не как играют марсы но всё же это неплохо звучит и я это использую, если честно на компе ничего больше у себя не нашла, так как обычно подбираю на слух. Но когда есть точная "инструкция к преминению" - любимая песня явно будит звучать, как вам хочеться. ;)
Так что выкладываем! Так же можем выкладывать ссылки на обучающие видеоверсии!

« Последнее редактирование: 29 Сентябрь, 2010, 20:59 от Anette the Black »
...We're trapped in the belly of this horrible machine
And the machine is bleeding to death...(c)

*

Оффлайн АлинаЗеленоглазая

  • Авторитет
  • *
  • 615
  • Пол: Женский
  • princess fro-fro
Re: Для гитаристов
« Ответ #1 : 31 Октябрь, 2009, 09:38 »
Ну раз на то пошло,то вот,правда,не табы,а аккорды-я табами редко играю.
Green Day-Saint Jimmy
Intro: A D A
                                        D A
St. Jimmy's comin' down across the alleyway
                                         D A
Upon the boulevard like a zipgun on parade
                     D A
Lights of a silhouette
                   D A
He's insubordinate
              E               D    A
Comin' at you on the count of one, two
(1,2,3,4!)

A D E A D E A

A          D             E          A
My name is Jimmy and you better not wear it out
A          D                 E            A
Just like a murder that your mother talked about
A           D               E            A
King of the 40 thieves and I'm here to represent
A          D             E          A
The needle in the vein of the establishment
D                           A
I'm the patron saint of the denial
D                        E
With an angel face and a taste for suicidal

A D E A D E A

A          D               E             A
Cigarettes and ramen and a little bag of dope
A          D                E          A
I am the son of a b*tch of Edgar Allen Poe
A              D          E        A
Raised in the city in the halo of lights
A          D                 E          A
product of war and fear that we've been victimized

D                           A
I'm the patron saint of the denial
D                        E
With an angel face and a taste for suicidal

A D A D E A D A D
E
Are you talkin to me?!
A D A D E A D A D
E
I'll give you somethin to cry about!!
A E F# F (x4)

St.Jimmy!!

A D E A D E



A                          D
My name is St. Jimmy I'm a son of a gun
        E                       A
I'm the one that's from the way outside, now
A                  D
A teenage assassin executing some fun
       E                     A
in the cult of the life of crime, now
A                               D
I'd really hate to say it but I told you so
        E                             A
So shut your mouth before I shoot you down 'ol boy
A                       D
Welcome to the club and give me some blood
        E                      A
I'm the resident leader of the lost and found
     A   D
It's comedy!
    E    A
And tragedy!
     A   D
It's St. Jimmy!
    EEEEEE    A
And that's my name!!......
                            A A A A
And don't wear it out!!!!!!!
« Последнее редактирование: 31 Октябрь, 2009, 16:45 от АлинаЗеленоглазая »

*

Оффлайн Clarion Call

  • Старейшина
  • *
  • 1092
  • Пол: Женский
  • Redeemer
Re: Для гитаристов
« Ответ #2 : 31 Октябрь, 2009, 15:05 »
АлинаЗеленоглазая - это тоже хорошо и удобно!)))
...We're trapped in the belly of this horrible machine
And the machine is bleeding to death...(c)

*

Оффлайн Clarion Call

  • Старейшина
  • *
  • 1092
  • Пол: Женский
  • Redeemer
Re: Для гитаристов
« Ответ #3 : 01 Ноябрь, 2009, 19:09 »
Radiohead - karma police
   Am   Am/F# Em    G   Am  F   Em    G   Am  D  G  C C/B Am  Bm  D
e--0----0----0-----3---0-------0-----3---0---2--3------------2---2-------
B--1----1----0-----0---1---1---0-----0---1---3--3--1--1--1---3---3-------
G--2----2----0-----0---2---2---0-----0---2---2--0--0--0--2---4---2-------
D--2----0----2-----0---2---3---2-----0---2---0--0--2--0--2---4---0-------
A--0---------2-----2---0---3---2-----2---0------2--3--2--0---2-----------
E-------2----0---2-3-----------0---2-3----------3------------------------



Am  D/F#    Em
Kar_ma     Police,
  G             Am
arrest this man,
   F    Em
he talks in maths,
   G                 Am
he buzzes like a fridge
     D  G         C   C/B  Am   Bm   D
he´s like a detuned ra_di____o.

Am  D/F# Em
Kar_ma    Police,
  G             Am
arrest this girl,
    F     Em
her hitler hairdo,
   G                    Am
is making me feel ill,
    D         G                 C   C/B  Am   Bm   D
and we have crashed her par_ty____.

C       D           G   F#
this is what you´ll get,
C       D           G   F#
this is what you´ll get,
C       D           G
this is what you´ll get,
         Bm        C    Bm  D
when you mess with us...

Am  D/F#   Em
Kar_ma    Police,
     G       Am
I´ve given all I can,
     F    Em
it´s not   enough,
     G       Am
I´ve given all I can,
    D             G      C C/B Am   Bm   D
but we´re still on the pay___roll.

C       D           G   F#
this is what you´ll get,
C       D           G   F#
this is what you´ll get,
C       D           G
this is what you´ll get,
         Bm        C    Bm  D
when you mess with us...

Bm        D          G
And for a minute there,
  D      G      D      E7
I lost myself I lost myself,
Bm          D        G
And for a minute there,
  D      G      D      E7
I lost myself I lost myself,

Bm        D          G
And for a minute there,
  D      G      D      E7
I lost myself I lost myself,
Bm          D        G
Just for a minute there,
  D      G      D      E7
I lost myself I lost myself



Franz ferdinand - take me out
Intro: E

             Am7     D
So if you're lonely,
             G    Hm7         Em
You know I'm here waiting for you.
           Am7        D
I'm just a crosshair,
           G     Hm7      Em
I'm just a shot away from you.

           Am7         D
And if you leave here,
             G       Hm7         Em
You leave me broken, shattered I lie
           Am7        D
I'm just a crosshair,
           G    Hm7         Em
I'm just a shot then we can die.
G  A  Em  G A Em
Ah-ah-ah.

G      D          F           C     Em
I know I won't be leaving here with you.

Instrumental: Em | Em | Em | Em | Am | Hm
              Em | Em | Am | Hm | Em | Em | Am Hm

   Em
     I say, don't you know?
     You say you don't know.
   Am     Hm        Em
     I say, take me out!

     I stay you don't show,
     Don't move, time is slow.
     I say, take me out!

     I say you don't know,
     You say you don't go.
     I say, take me out!

     If I move this could die.
     If eyes move this could die.
     I want you to take me out.

   Am                C6      D6
   I know I won't be leaving here.
       Am                C6            D6
   Oh, I know I won't be leaving here.
   Am                C6            D6
   I know I won't be leaving here.
   Am                C       D7        Em
   I know I won't be leaving here with you.

     I say you don't know,
     You say you don't know.
     I say, take me out!

     If I wait this could die.
     If I wane this could die.
     I want you to take me out.

     If I move this could die.
     If eyes move this could die.
     Come on, take me out.

   I know I won't be leaving here.
   I know I won't be leaving here.
   I know I won't be leaving here.
   I know I won't be leaving here with you.
« Последнее редактирование: 01 Ноябрь, 2009, 19:24 от Чертёнок на М@рсе »
...We're trapped in the belly of this horrible machine
And the machine is bleeding to death...(c)

*

Оффлайн chapman

  • Авторитет
  • *
  • 604
  • Пол: Женский
Re: Для гитаристов
« Ответ #4 : 01 Ноябрь, 2009, 19:15 »
Цитировать
так как обычно подбираю на слух
попробуй программу GuitarPro полезная вещь.

*

Оффлайн Clarion Call

  • Старейшина
  • *
  • 1092
  • Пол: Женский
  • Redeemer
Re: Для гитаристов
« Ответ #5 : 01 Ноябрь, 2009, 19:23 »
А у меня кажеться что то такое на компе валяеться... надо посмотреть. Спс!
...We're trapped in the belly of this horrible machine
And the machine is bleeding to death...(c)

*

Оффлайн chapman

  • Авторитет
  • *
  • 604
  • Пол: Женский
Re: Для гитаристов
« Ответ #6 : 01 Ноябрь, 2009, 19:25 »
не за что, с ней работать гораздо удобней и проще, хотя поначалу я тоже сама подбирала аккорды.

*

Оффлайн Vremia goda_Лето

  • Модератор
  • Старейшина
  • *
  • 5680
  • Пол: Женский
  • say HEY-HO!
    • https://www.facebook.com/
    • http://www.lastfm.ru/user/VremiaGoda_Leto
    • https://twitter.com/_olgatomilina
    • http://vk.com/id5451931
Re: Для гитаристов
« Ответ #7 : 10 Январь, 2010, 20:26 »
Хм, быстро тема умерла. Эй, гитаристы, вы там где? Не уж то перевелись все)))
Я вот сейчас The Kill подбираю с видео акустической версии со скрипками, на одну гитару подобрать решила))
« Последнее редактирование: 10 Январь, 2010, 20:29 от Vremia goda_Лето »
30STM 14.3.2010 10.12.2010 12.06.2013 22.03.2015
PLACEBO 20.09.2010 18.09.2012 04.07.2015
MUSE 22.05.2011 19.06.2015 21.06.2016
LINKIN PARK 23.06.2011
SUM41 25.07.2012
GARBAGE 07.11.2012 11.11.2015
KASABIAN 08.03.2012
HIM 12.06.2013
GREEN DAY 21.06.2013
INCUBUS 19.06.2015

*

Оффлайн АлинаЗеленоглазая

  • Авторитет
  • *
  • 615
  • Пол: Женский
  • princess fro-fro
Re: Для гитаристов
« Ответ #8 : 11 Январь, 2010, 13:58 »
Vremia goda_Лето,нее,Оль,не перевелись! ;) На одну гитару?Да ты зверь))Удачи.
Я сейчас песни Green Day раскладываю для 2х гитар.И на 2 голоса.И со всеми соло пытаюсь на слух.Gutar Pro я ещё плохо пользуюсь.

*

Оффлайн Vremia goda_Лето

  • Модератор
  • Старейшина
  • *
  • 5680
  • Пол: Женский
  • say HEY-HO!
    • https://www.facebook.com/
    • http://www.lastfm.ru/user/VremiaGoda_Leto
    • https://twitter.com/_olgatomilina
    • http://vk.com/id5451931
Re: Для гитаристов
« Ответ #9 : 05 Февраль, 2010, 17:04 »
АлинаЗеленоглазая, дааа, это было жестоко. Но самое удивительное, что получилось)ахахаа) Я ближе к лету сниму видео на эту версию, а подруга мне на скрипке подыгает)
30STM 14.3.2010 10.12.2010 12.06.2013 22.03.2015
PLACEBO 20.09.2010 18.09.2012 04.07.2015
MUSE 22.05.2011 19.06.2015 21.06.2016
LINKIN PARK 23.06.2011
SUM41 25.07.2012
GARBAGE 07.11.2012 11.11.2015
KASABIAN 08.03.2012
HIM 12.06.2013
GREEN DAY 21.06.2013
INCUBUS 19.06.2015

*

Оффлайн Clarion Call

  • Старейшина
  • *
  • 1092
  • Пол: Женский
  • Redeemer
Re: Для гитаристов
« Ответ #10 : 05 Февраль, 2010, 22:48 »
кое-что из Franz Ferdinand

Auf Ache

е----------------------------------0-------------|
B|---1----0----------------1----0--------------------|
G|---------- -2------- ---------------2----------------|
D|--------------2------------------------------------|
A|---0---------------------3--------------------- ---- |
E|---------------------------------------------------|

e|-------------------------------------5--------------|
B|---6----5----------- -----6-- ---5--------------------|
G|-----------7----------------------7-----------------|
D|--------------7-------------------------------------|
A |--- 8---------------------5--------------------------\
E|----------------------------------------------------|

e|--------------------------- ------ -------------------|
B|---1----0----------------0--------------------------|
G|-----------2------------------2---------------------|
D|-- ------ ------2------------------0------------------|
A|---0---------------------3----------3---------------|
E|---------------------------------- ---- --------------|

e|-----------0--------------------0-------------------|
B|---3----1---------------3----1-------------2--------|
G|----- -------- -2--------------------0----------------|
D|---0--------------------3---------------------------|
A|--------------------------------------- ---- ---------|
E|----------------------------------------------------|

Jacqueline

h - hammer on
p - pull off
b - bend string up
r - release bend
/ - slide up
- slide down
x - mute
string Intro Riffs (0:49)Riff 1:
|---------------------------------------|
|-------------------4-4-4---------------|
|-------------5-5-5-------5-5-5---------|
|------ -5-5-5-------------------5-5-5---|
|-3-3-3---------------------------------|
|---------------------------------------|x2
Riff 2:
|--------------------------------------------------|
|-8-x8-4--6^-8-x8-4-6^8-x8-4--6^~6~6~-4-4--3-3---|
|----------------------------- ---------------------|
|--------------------------------------------------|
|--------------------------------------------------|
|------- -------------------------------------------|x2
Riff3:
|-----------------------------------|
|-----------------------------------|
|----- ------------------------------|
|-----------------3-5-6-6-3---------|
|-3-3-3-6--3--5-6-----------6-5-----|
|---------------------------- -------|x4
Chorus:
Cm A# G#
It's always better on holiday
Cm D# F* D# D
So much better on holiday
Cm A# G# G Cm D# F* D
That's why we only work when we need the money
Verse:
Cm
Gregor was down again
G#Said, 'Come on, kick me again'
A# A#7
Said, 'I'm so drunk I don't mind if you kill me
'Cm G#
Come on you gutless
A#
Yeah, I'm alive
A#
7I'm alive
G Cm
I'm alive and how I know it
G# A# Cm
But for chips, and for freedom I could die
Solo: (2:23)
|-----------------------------------------|
|-8-x8-4--6^-4---8 x8-4--6~6~6~-4-4-3-3---|
|-----------------------------------------|
|-----------------------------------------|
|----------------------- ------------------|
|-----------------------------------------|
Break 1:
|--------------------|
|--------------------|
|--------------------|
|-3--------5--6-8----|
|-3--------5--6-8----|
|-1--------3--4- 6----|
Break 2:
|-3-3-x--3-3-x--3-3-x-x----|
|-4-4-x--4-4-x--4-4-x-x----|
|-5-5-x--5-5-x--5-5-x-x----|
|-5-5-x--5-5-x--5-5-x-x----|
|-3-3-x--3-3-x-- 3-3-x-x----|
|--------------------------|

Love And Destroy (та самая пр мастера и маргариту :D)

|----------------|
|----------------|
|----------------|
|-7--------------|
|-x--------------|
|-5--------------|

|---- ----------------------|
|--------------------------|
|--------------------------|
|-7-7--5-4-5-4-------------|
|-----------------2-2-2-- --|
|--------------------------|x2

|---------------------------------------|
|---------------------------------------|
|-------------- -------------------------|
|-7-7--5-4-5-4----------------2-4-2-----|
|-----------------2-2-2---5-5--------2--|
|------------------------- --------------|

|----------------|
|-7--------------|
|-7--------------|
|-x--------------|
|-5--------------|
|----------------|
C horus:
|----------------|
|-11-------------|
|-11-------------|
|-x--------------|
|-9--------------|
|----------------|


Depeche Mode - Barrel Of A Gun

! Нaчинaeтcя c Pre-Chorus 2:

Pre-Chorus 2: What am I supposed to do?
When everything that I’ve done
Is leading me to conclude
I’m not the one
[E-|------------------------------------------------------------------------------|
B-|------------------------------------------------------------------------------|
G-|------------------------------------------------------------------------------|
D-|------------------------------------------------------------------------------|
A-|---7---------------------------------------5---------3-----------------------|
E-|---5---------------------------------------3---------1-----------------------|]

Chorus: Whatever I’ve done
[E-|------------------------------------------------------------------------------|
B-|------------------------------------------------------------------------------|
G-|------------------------------------------------------------------------------|
D-|------------------------------------------------------------------------------|
A-|---2---------------7---------5---------3--------------------------------------|
E-|---0---------------5---------3---------1--------------------------------------|]
I’ve been staring down the Barrel of a Gun
[E-|------------------------------------------------------------------------------|
B-|------------------------------------------------------------------------------|
G-|------------------------------------------------------------------------------|
D-|------------------------------------------------------------------------------|
A-|---------------------------------------------------9---------7----------------|
E-|---------------------------------------------------7---------5----------------|]
Whatever I’ve done
[E-|------------------------------------------------------------------------------|
B-|------------------------------------------------------------------------------|
G-|------------------------------------------------------------------------------|
D-|------------------------------------------------------------------------------|
A-|---2---------------7---------5---------3--------------------------------------|
E-|---0---------------5---------3---------1--------------------------------------|]
I’ve been staring down the Barrel of a Gun
[E-|------------------------------------------------------------------------------|
B-|------------------------------------------------------------------------------|
G-|------------------------------------------------------------------------------|
D-|------------------------------------------------------------------------------|
A-|---------------------------------------------------9---------7----------------|
E-|---------------------------------------------------7---------5----------------|]
Whatever I’ve done
[E-|------------------------------------------------------------------------------|
B-|------------------------------------------------------------------------------|
G-|------------------------------------------------------------------------------|
D-|------------------------------------------------------------------------------|
A-|---2---------------7---------5---------3--------------------------------------|
E-|---0---------------5---------3---------1--------------------------------------|]
I’ve been staring down the Barrel of a Gun
[E-|------------------------------------------------------------------------------|
B-|------------------------------------------------------------------------------|
G-|------------------------------------------------------------------------------|
D-|------------------------------------------------------------------------------|
A-|---------------------------------------------------9---------7----------------|
E-|---------------------------------------------------7---------5----------------|]
Whatever I’ve done Whatever Whatever
[E-|------------------------------------------------------------------------------|
B-|------------------------------------------------------------------------------|
G-|------------------------------------------------------------------------------|
D-|------------------------------------------------------------------------------|
A-|---2---------------7---------5---------3--------------------------------------|
E-|---0---------------5---------3---------1------------------------------------

Вот тут что для gutar pro (оказывается у меня удалилась эта программа)та же песня)
http://www.mega-tabs.ru/tabs/tab/3193/
Muse - Bliss

Intro:
Cm - Bb - Fm - Cm - Bb - Fm - Cm - Cm
Cm - Bb - Fm - Cm - Bb - Fm - Cm - Cm

verse 1:
Cm Bb Fm Cm
everything about you is how i'd wanna be

Bb Fm Cm
you freedom comes naturaly

Cm Bb Fm Cm
everything about you reasonates happiness

Bb Fm Cm
no i wont settle for less

C Am
give me

C/G C
all of the peace

Am E Fm
and joy in your mind ohh


pre verse:

Cm - Bb - Fm - Cm - Bb - Fm - Cm - Cm


verse:
Cm Bb Fm
everything about you pains my envying

Cm Bb Fm
your soul cant hate anything

Cm Bb Fm
everything about you is so easy to love

Cm Bb Fm Cm
they're watching you from above


chorus:
C Am
give me

C/G C
all of the peace

Am E
and joy in your mind

C Am C/G
i want the peace and joy in your mind

C Am E
give me the peace and joy in your mind

Fm
ohh


bridge:
Cm - Bb - Fm - Cm - Bb - Fm - Cm - Cm

Cm Bb Fm Cm
everything about you reasonates happiness

Bb Fm Cm
now i wont settle for less


chorus:
C Am C/G
Give me

C Am E
all the peace and joy in your mind


C Am C/G
i want the peace and joy in your mind

Fm
ohh


outro:
Cm - Bb - Fm - Cm - Bb - Fm - Cm - Cm - fade ou

^_____^

Ещё вариант:

Live Guitar version

Intro
Chords:Cm,Bb,Fm


Cm
e----------11------15--11--------------------
B------13------13----------13----------------
G--12--------------------------12------------
D--------------------------------------------
A--------------------------------------------
E--------------------------------------------

Bb
e----------10------13--10--------------------
B------11------11----------11----------------
G--10--------------------------10------------
D--------------------------------------------
A--------------------------------------------
E--------------------------------------------

Fm
e-----------8------13---8--------------------
B-------9------9------------9----------------
G--10--------------------------10------------
D--------------------------------------------
A--------------------------------------------
E--------------------------------------------

Cm
e----------15------15--11--------------------
B------13------13----------13----------------
G--12--------------------------12------------
D--------------------------------------------
A--------------------------------------------
E--------------------------------------------

Bb
e----------10------13--10--------------------
B------11------11----------11----------------
G--10--------------------------10------------
D--------------------------------------------
A--------------------------------------------
E--------------------------------------------

Fm
e-----------8------13---8--------------------
B-------9------9------------9----------------
G--10--------------------------10------------
D--------------------------------------------
A--------------------------------------------
E--------------------------------------------

Cm
e----------15------15--11------11------------
B------13------13----------13----------------
G--12---------------------------------------- x2
D--------------------------------------------
A--------------------------------------------
E--------------------------------------------

REPEAT THIS PATTERN FOR VERSE

Chorus

C Am G
peace and joy in your mind
C Am E
i want the peace and the joy in your mind
C Am G
give me peace and joy in your mind
C Am E
i want the peace and the joy in your mind


Then play the chords of the verse but not the riff once:

Cm, Bb, Fm, Cm, Bb, Fm, Cm

Then back to riff once and then 2nd verse


Chorus

C Am G
peace and joy in your mind
C Am E
i want the peace and the joy in your mind
C Am G
give me peace and joy in your mind
C Am E
i want the peace and the joy in your mind


After this comes a solo with tremolo picking which I can´t really make out on he version
i have.


Chords for chorus

It sounds like he´s playing the chord really high up the fretboard

C Am G E
e-0-------0-------15-------0----------
B-13------13------0--------0----------
G-0-------14------0--------13---------
D-14------14------0--------14---------
A-15------0-------14-------14---------
E-X-------x-------15-------0----------
« Последнее редактирование: 05 Февраль, 2010, 22:55 от Чертёнок на М@рсе »
...We're trapped in the belly of this horrible machine
And the machine is bleeding to death...(c)

*

Оффлайн Fluffy_Fluffy

  • Участник
  • *
  • 139
  • Пол: Женский
  • its all just end
Re: Для гитаристов
« Ответ #11 : 05 Февраль, 2010, 22:57 »
Чертёнок на М@рсе спасибо большое за аккорды^^ буду мучать гитару теперь :D
дай мне больший закал,
подари мне пальто,
назови моим именем поезд в метро.


*

Оффлайн АлинаЗеленоглазая

  • Авторитет
  • *
  • 615
  • Пол: Женский
  • princess fro-fro
Re: Для гитаристов
« Ответ #12 : 07 Февраль, 2010, 15:50 »
Оля,да ты просто гений!Ну поздравляю,и горю желанием услышать и увидеть!

*

Оффлайн Казак

  • Легенда форума
  • Активный участник
  • *
  • 452
  • Пол: Мужской
  • My scary movie will be shown
Re: Для гитаристов
« Ответ #13 : 23 Ноябрь, 2010, 19:40 »
Вы бы хоть в цифре выкладывали, GTP, чтоль...а то не сурьезно...
I don't do smiling...

*

Оффлайн Abberline

  • Авторитет
  • *
  • 627
  • Пол: Женский
  • псих
Re: Для гитаристов
« Ответ #14 : 01 Декабрь, 2010, 23:58 »
http://www.ultimate-guitar.com/
вот тут очень много табов, в том числе и для гитар про, и табы не только касающиееся Марсов, ну и аккорды.
Но мне как то легче без этой проги... привыкла наверное))

I believe in nothing.